ISO-10303-21;
HEADER;
FILE_DESCRIPTION (( 'STEP AP203' ),
    '1' );
FILE_NAME ('MHWP-25.4-441.6.STEP',
    '2020-12-22T09:26:03',
    ( '' ),
    ( '' ),
    'SwSTEP 2.0',
    'SolidWorks 2020',
    '' );
FILE_SCHEMA (( 'CONFIG_CONTROL_DESIGN' ));
ENDSEC;

DATA;
#1 = EDGE_LOOP ( 'NONE', ( #115, #128, #67, #113 ) ) ;
#2 = APPROVAL ( #42, 'UNSPECIFIED' ) ;
#3 = VERTEX_POINT ( 'NONE', #98 ) ;
#4 = AXIS2_PLACEMENT_3D ( 'NONE', #5, #90, #143 ) ;
#5 = CARTESIAN_POINT ( 'NONE',  ( 1.999999999999998224, 0.000000000000000000, 0.000000000000000000 ) ) ;
#6 = MANIFOLD_SOLID_BREP ( 'Ðý×', #29 ) ;
#7 = CARTESIAN_POINT ( 'NONE',  ( -5.939536975864662969E-16, 12.69999999999999929, 0.000000000000000000 ) ) ;
#8 = CC_DESIGN_PERSON_AND_ORGANIZATION_ASSIGNMENT ( #59, #72, ( #125 ) ) ;
#9 = CC_DESIGN_APPROVAL ( #132, ( #101 ) ) ;
#10 =( NAMED_UNIT ( * ) PLANE_ANGLE_UNIT ( ) SI_UNIT ( $, .RADIAN. ) );
#11 = CARTESIAN_POINT ( 'NONE',  ( 0.000000000000000000, 1.555301434917138433E-15, -12.69999999999999929 ) ) ;
#12 = PERSON_AND_ORGANIZATION ( #24, #174 ) ;
#13 =( NAMED_UNIT ( * ) SI_UNIT ( $, .STERADIAN. ) SOLID_ANGLE_UNIT ( ) );
#14 = CC_DESIGN_PERSON_AND_ORGANIZATION_ASSIGNMENT ( #139, #173, ( #101 ) ) ;
#15 = COORDINATED_UNIVERSAL_TIME_OFFSET ( 8, 0, .AHEAD. ) ;
#16 =( GEOMETRIC_REPRESENTATION_CONTEXT ( 3 ) GLOBAL_UNCERTAINTY_ASSIGNED_CONTEXT ( ( #168 ) ) GLOBAL_UNIT_ASSIGNED_CONTEXT ( ( #121, #10, #13 ) ) REPRESENTATION_CONTEXT ( 'NONE', 'WORKASPACE' ) );
#17 = CALENDAR_DATE ( 2020, 22, 12 ) ;
#18 = LOCAL_TIME ( 17, 26, 3.000000000000000000, #175 ) ;
#19 = EDGE_LOOP ( 'NONE', ( #164, #50 ) ) ;
#20 = FACE_OUTER_BOUND ( 'NONE', #65, .T. ) ;
#21 = DIRECTION ( 'NONE',  ( 0.000000000000000000, 0.000000000000000000, 1.000000000000000000 ) ) ;
#22 = LINE ( 'NONE', #153, #122 ) ;
#23 = PRODUCT_DEFINITION ( 'UNKNOWN', '', #101, #106 ) ;
#24 = PERSON ( 'UNSPECIFIED', 'UNSPECIFIED', 'UNSPECIFIED', ('UNSPECIFIED'), ('UNSPECIFIED'), ('UNSPECIFIED') ) ;
#25 = PERSON_AND_ORGANIZATION ( #24, #174 ) ;
#26 = CIRCLE ( 'NONE', #171, 12.69999999999999929 ) ;
#27 = AXIS2_PLACEMENT_3D ( 'NONE', #7, #34, #48 ) ;
#28 = APPLICATION_CONTEXT ( 'configuration controlled 3d designs of mechanical parts and assemblies' ) ;
#29 = CLOSED_SHELL ( 'NONE', ( #96, #156, #44, #40 ) ) ;
#30 = CARTESIAN_POINT ( 'NONE',  ( 1.999999999999998224, 0.000000000000000000, 0.000000000000000000 ) ) ;
#31 = PRODUCT_RELATED_PRODUCT_CATEGORY ( 'detail', '', ( #38 ) ) ;
#32 = DATE_AND_TIME ( #17, #53 ) ;
#33 = CALENDAR_DATE ( 2020, 22, 12 ) ;
#34 = DIRECTION ( 'NONE',  ( 1.000000000000000000, 0.000000000000000000, 0.000000000000000000 ) ) ;
#35 = EDGE_CURVE ( 'NONE', #3, #82, #26, .T. ) ;
#36 = PRODUCT_DEFINITION_SHAPE ( 'NONE', 'NONE',  #23 ) ;
#37 = CC_DESIGN_APPROVAL ( #2, ( #23 ) ) ;
#38 = PRODUCT ( 'MHWP-25.4-441.6', 'MHWP-25.4-441.6', '', ( #58 ) ) ;
#39 = COORDINATED_UNIVERSAL_TIME_OFFSET ( 8, 0, .AHEAD. ) ;
#40 = ADVANCED_FACE ( 'NONE', ( #81 ), #141, .F. ) ;
#41 = CC_DESIGN_APPROVAL ( #91, ( #125 ) ) ;
#42 = APPROVAL_STATUS ( 'not_yet_approved' ) ;
#43 = PERSON_AND_ORGANIZATION_ROLE ( 'creator' ) ;
#44 = ADVANCED_FACE ( 'NONE', ( #20 ), #142, .F. ) ;
#45 = PERSON_AND_ORGANIZATION ( #24, #174 ) ;
#46 = SHAPE_DEFINITION_REPRESENTATION ( #36, #69 ) ;
#47 = CC_DESIGN_PERSON_AND_ORGANIZATION_ASSIGNMENT ( #25, #84, ( #23 ) ) ;
#48 = DIRECTION ( 'NONE',  ( 0.000000000000000000, 0.000000000000000000, -1.000000000000000000 ) ) ;
#49 = AXIS2_PLACEMENT_3D ( 'NONE', #157, #86, #119 ) ;
#50 = ORIENTED_EDGE ( 'NONE', *, *, #35, .T. ) ;
#51 = DIRECTION ( 'NONE',  ( -0.000000000000000000, 0.000000000000000000, 1.000000000000000000 ) ) ;
#52 = DIRECTION ( 'NONE',  ( -1.000000000000000000, 0.000000000000000000, -0.000000000000000000 ) ) ;
#53 = LOCAL_TIME ( 17, 26, 3.000000000000000000, #15 ) ;
#54 = EDGE_LOOP ( 'NONE', ( #127, #63, #99, #83 ) ) ;
#55 = APPLICATION_PROTOCOL_DEFINITION ( 'international standard', 'config_control_design', 1994, #28 ) ;
#56 = EDGE_CURVE ( 'NONE', #89, #165, #74, .T. ) ;
#57 = CARTESIAN_POINT ( 'NONE',  ( 1.999999999999998224, 0.000000000000000000, 12.69999999999999929 ) ) ;
#58 = MECHANICAL_CONTEXT ( 'NONE', #97, 'mechanical' ) ;
#59 = PERSON_AND_ORGANIZATION ( #24, #174 ) ;
#60 = CALENDAR_DATE ( 2020, 22, 12 ) ;
#61 = DATE_TIME_ROLE ( 'creation_date' ) ;
#62 = CARTESIAN_POINT ( 'NONE',  ( -1.187907395172932594E-15, 0.000000000000000000, 0.000000000000000000 ) ) ;
#63 = ORIENTED_EDGE ( 'NONE', *, *, #56, .T. ) ;
#64 = LOCAL_TIME ( 17, 26, 3.000000000000000000, #135 ) ;
#65 = EDGE_LOOP ( 'NONE', ( #144, #154 ) ) ;
#66 = CARTESIAN_POINT ( 'NONE',  ( -1.187907395172932594E-15, 0.000000000000000000, 12.69999999999999929 ) ) ;
#67 = ORIENTED_EDGE ( 'NONE', *, *, #85, .F. ) ;
#68 = DIRECTION ( 'NONE',  ( -1.000000000000000000, -0.000000000000000000, -0.000000000000000000 ) ) ;
#69 = ADVANCED_BREP_SHAPE_REPRESENTATION ( 'MHWP-25.4-441.6', ( #6, #112 ), #16 ) ;
#70 = DIRECTION ( 'NONE',  ( 0.000000000000000000, 0.000000000000000000, 1.000000000000000000 ) ) ;
#71 = DIRECTION ( 'NONE',  ( -1.000000000000000000, -0.000000000000000000, -0.000000000000000000 ) ) ;
#72 = PERSON_AND_ORGANIZATION_ROLE ( 'classification_officer' ) ;
#73 = EDGE_CURVE ( 'NONE', #165, #82, #22, .T. ) ;
#74 = CIRCLE ( 'NONE', #4, 12.69999999999999929 ) ;
#75 = AXIS2_PLACEMENT_3D ( 'NONE', #30, #68, #70 ) ;
#76 = PERSON_AND_ORGANIZATION ( #24, #174 ) ;
#77 = DATE_AND_TIME ( #123, #64 ) ;
#78 = COORDINATED_UNIVERSAL_TIME_OFFSET ( 8, 0, .AHEAD. ) ;
#79 = CC_DESIGN_PERSON_AND_ORGANIZATION_ASSIGNMENT ( #172, #43, ( #101 ) ) ;
#80 = LOCAL_TIME ( 17, 26, 3.000000000000000000, #78 ) ;
#81 = FACE_OUTER_BOUND ( 'NONE', #19, .T. ) ;
#82 = VERTEX_POINT ( 'NONE', #66 ) ;
#83 = ORIENTED_EDGE ( 'NONE', *, *, #35, .F. ) ;
#84 = PERSON_AND_ORGANIZATION_ROLE ( 'creator' ) ;
#85 = EDGE_CURVE ( 'NONE', #82, #3, #92, .T. ) ;
#86 = DIRECTION ( 'NONE',  ( -1.000000000000000000, -0.000000000000000000, -0.000000000000000000 ) ) ;
#87 = CARTESIAN_POINT ( 'NONE',  ( 0.000000000000000000, 0.000000000000000000, 0.000000000000000000 ) ) ;
#88 = LOCAL_TIME ( 17, 26, 3.000000000000000000, #39 ) ;
#89 = VERTEX_POINT ( 'NONE', #148 ) ;
#90 = DIRECTION ( 'NONE',  ( -1.000000000000000000, -0.000000000000000000, -0.000000000000000000 ) ) ;
#91 = APPROVAL ( #126, 'UNSPECIFIED' ) ;
#92 = CIRCLE ( 'NONE', #147, 12.69999999999999929 ) ;
#93 = DIRECTION ( 'NONE',  ( 0.000000000000000000, 0.000000000000000000, 1.000000000000000000 ) ) ;
#94 = CARTESIAN_POINT ( 'NONE',  ( 0.000000000000000000, 0.000000000000000000, 0.000000000000000000 ) ) ;
#95 = APPROVAL_PERSON_ORGANIZATION ( #45, #91, #159 ) ;
#96 = ADVANCED_FACE ( 'NONE', ( #133 ), #130, .T. ) ;
#97 = APPLICATION_CONTEXT ( 'configuration controlled 3d designs of mechanical parts and assemblies' ) ;
#98 = CARTESIAN_POINT ( 'NONE',  ( -1.187907395172932594E-15, 1.555301434917138433E-15, -12.69999999999999929 ) ) ;
#99 = ORIENTED_EDGE ( 'NONE', *, *, #73, .T. ) ;
#100 = DIRECTION ( 'NONE',  ( 0.000000000000000000, 0.000000000000000000, 1.000000000000000000 ) ) ;
#101 = PRODUCT_DEFINITION_FORMATION_WITH_SPECIFIED_SOURCE ( 'ANY', '', #38, .NOT_KNOWN. ) ;
#102 = CYLINDRICAL_SURFACE ( 'NONE', #163, 12.69999999999999929 ) ;
#103 = LINE ( 'NONE', #11, #104 ) ;
#104 = VECTOR ( 'NONE', #71, 1000.000000000000000 ) ;
#105 = PERSON_AND_ORGANIZATION_ROLE ( 'design_owner' ) ;
#106 = DESIGN_CONTEXT ( 'detailed design', #28, 'design' ) ;
#107 = EDGE_CURVE ( 'NONE', #89, #3, #103, .T. ) ;
#108 = DATE_TIME_ROLE ( 'classification_date' ) ;
#109 = DATE_AND_TIME ( #60, #18 ) ;
#110 = DATE_AND_TIME ( #33, #80 ) ;
#111 = CARTESIAN_POINT ( 'NONE',  ( 1.999999999999999112, 12.69999999999999929, 0.000000000000000000 ) ) ;
#112 = AXIS2_PLACEMENT_3D ( 'NONE', #87, #93, #118 ) ;
#113 = ORIENTED_EDGE ( 'NONE', *, *, #73, .F. ) ;
#114 = DIRECTION ( 'NONE',  ( -1.000000000000000000, -0.000000000000000000, -0.000000000000000000 ) ) ;
#115 = ORIENTED_EDGE ( 'NONE', *, *, #136, .T. ) ;
#116 = APPROVAL_PERSON_ORGANIZATION ( #131, #2, #145 ) ;
#117 = DATE_AND_TIME ( #150, #88 ) ;
#118 = DIRECTION ( 'NONE',  ( 1.000000000000000000, 0.000000000000000000, 0.000000000000000000 ) ) ;
#119 = DIRECTION ( 'NONE',  ( 0.000000000000000000, 0.000000000000000000, 1.000000000000000000 ) ) ;
#120 = CC_DESIGN_DATE_AND_TIME_ASSIGNMENT ( #110, #108, ( #125 ) ) ;
#121 =( LENGTH_UNIT ( ) NAMED_UNIT ( * ) SI_UNIT ( .MILLI., .METRE. ) );
#122 = VECTOR ( 'NONE', #129, 1000.000000000000000 ) ;
#123 = CALENDAR_DATE ( 2020, 22, 12 ) ;
#124 = APPROVAL_ROLE ( '' ) ;
#125 = SECURITY_CLASSIFICATION ( '', '', #134 ) ;
#126 = APPROVAL_STATUS ( 'not_yet_approved' ) ;
#127 = ORIENTED_EDGE ( 'NONE', *, *, #107, .F. ) ;
#128 = ORIENTED_EDGE ( 'NONE', *, *, #107, .T. ) ;
#129 = DIRECTION ( 'NONE',  ( -1.000000000000000000, -0.000000000000000000, -0.000000000000000000 ) ) ;
#130 = CYLINDRICAL_SURFACE ( 'NONE', #49, 12.69999999999999929 ) ;
#131 = PERSON_AND_ORGANIZATION ( #24, #174 ) ;
#132 = APPROVAL ( #138, 'UNSPECIFIED' ) ;
#133 = FACE_OUTER_BOUND ( 'NONE', #1, .T. ) ;
#134 = SECURITY_CLASSIFICATION_LEVEL ( 'unclassified' ) ;
#135 = COORDINATED_UNIVERSAL_TIME_OFFSET ( 8, 0, .AHEAD. ) ;
#136 = EDGE_CURVE ( 'NONE', #165, #89, #137, .T. ) ;
#137 = CIRCLE ( 'NONE', #75, 12.69999999999999929 ) ;
#138 = APPROVAL_STATUS ( 'not_yet_approved' ) ;
#139 = PERSON_AND_ORGANIZATION ( #24, #174 ) ;
#140 = CC_DESIGN_SECURITY_CLASSIFICATION ( #125, ( #101 ) ) ;
#141 = PLANE ( 'NONE',  #27 ) ;
#142 = PLANE ( 'NONE',  #146 ) ;
#143 = DIRECTION ( 'NONE',  ( 0.000000000000000000, 0.000000000000000000, 1.000000000000000000 ) ) ;
#144 = ORIENTED_EDGE ( 'NONE', *, *, #136, .F. ) ;
#145 = APPROVAL_ROLE ( '' ) ;
#146 = AXIS2_PLACEMENT_3D ( 'NONE', #111, #52, #51 ) ;
#147 = AXIS2_PLACEMENT_3D ( 'NONE', #162, #114, #100 ) ;
#148 = CARTESIAN_POINT ( 'NONE',  ( 1.999999999999998224, 1.555301434917138433E-15, -12.69999999999999929 ) ) ;
#149 = CC_DESIGN_PERSON_AND_ORGANIZATION_ASSIGNMENT ( #12, #105, ( #38 ) ) ;
#150 = CALENDAR_DATE ( 2020, 22, 12 ) ;
#151 = APPROVAL_PERSON_ORGANIZATION ( #76, #132, #124 ) ;
#152 = APPROVAL_DATE_TIME ( #77, #132 ) ;
#153 = CARTESIAN_POINT ( 'NONE',  ( 0.000000000000000000, 0.000000000000000000, 12.69999999999999929 ) ) ;
#154 = ORIENTED_EDGE ( 'NONE', *, *, #56, .F. ) ;
#155 = DIRECTION ( 'NONE',  ( -1.000000000000000000, -0.000000000000000000, -0.000000000000000000 ) ) ;
#156 = ADVANCED_FACE ( 'NONE', ( #167 ), #102, .T. ) ;
#157 = CARTESIAN_POINT ( 'NONE',  ( 0.000000000000000000, 0.000000000000000000, 0.000000000000000000 ) ) ;
#158 = APPLICATION_PROTOCOL_DEFINITION ( 'international standard', 'config_control_design', 1994, #97 ) ;
#159 = APPROVAL_ROLE ( '' ) ;
#160 = APPROVAL_DATE_TIME ( #109, #91 ) ;
#161 = CC_DESIGN_DATE_AND_TIME_ASSIGNMENT ( #32, #61, ( #23 ) ) ;
#162 = CARTESIAN_POINT ( 'NONE',  ( -1.187907395172932594E-15, 0.000000000000000000, 0.000000000000000000 ) ) ;
#163 = AXIS2_PLACEMENT_3D ( 'NONE', #94, #169, #170 ) ;
#164 = ORIENTED_EDGE ( 'NONE', *, *, #85, .T. ) ;
#165 = VERTEX_POINT ( 'NONE', #57 ) ;
#166 = APPROVAL_DATE_TIME ( #117, #2 ) ;
#167 = FACE_OUTER_BOUND ( 'NONE', #54, .T. ) ;
#168 = UNCERTAINTY_MEASURE_WITH_UNIT (LENGTH_MEASURE( 1.000000000000000082E-05 ), #121, 'distance_accuracy_value', 'NONE');
#169 = DIRECTION ( 'NONE',  ( -1.000000000000000000, -0.000000000000000000, -0.000000000000000000 ) ) ;
#170 = DIRECTION ( 'NONE',  ( 0.000000000000000000, 0.000000000000000000, 1.000000000000000000 ) ) ;
#171 = AXIS2_PLACEMENT_3D ( 'NONE', #62, #155, #21 ) ;
#172 = PERSON_AND_ORGANIZATION ( #24, #174 ) ;
#173 = PERSON_AND_ORGANIZATION_ROLE ( 'design_supplier' ) ;
#174 = ORGANIZATION ( 'UNSPECIFIED', 'UNSPECIFIED', '' ) ;
#175 = COORDINATED_UNIVERSAL_TIME_OFFSET ( 8, 0, .AHEAD. ) ;
ENDSEC;
END-ISO-10303-21;
